Bruce Bernhart Mandolin Webpages

Updated!


Bruce Bernhart Mandolin Webpages

Original articles plus the "best of the web" by mandolin enthusiast/teacher Bruce Bernhart

Updated October 25, 2012


Bernhart Websites


Bruce Bernhart Presents Mandolin Rock Tabs

Bruce Benhart Mandolin Websites

The Bruce Bernhart Mandolin Webpages explore the history of the mandolin, buying and building mandolins, the various makes and models of mandolins available on the market, basic chord structures, different styles of playing, practice exercises, and the best of the web on mandolin topics.



Bruce Bernhart Mandolin Websites

In Minnesota, Bruce Bernhart has been a mandolin player/ enthusiast since the 1980's


Look for additional Bruce Bernhart mandolin articles 


Latest in the Bruce Bernhart Website Series
Here's the Cream classic "Sunshine of Your Love"- pretty straightforward.

Sunshine Of Your Love
Cream
Transcribed By Jesse Feltz

Part 1
|-------------------------|----------------------|
|-5--5--3--5----7----6----|5---------------------|
|-------------------------|-----0----3~~--0------|
|-------------------------|----------------------|

Part 2
|-------------------------|-----------------------|
|-9--9--7--7--------------|-----5----8~~~-5-------|
|-7--7--5--5----7----6----|5----------------------|
|-7--7--5--5--------------|-----------------------|

Part 3
|-------------------------|-----------------------|
|-------------------------|-----------------------|
|-7--7--5--5----12---11---|10--------8~~~---------|
|-7--7--5--5--------------|-----12--------12------|

Chorus
|-------------------------|------|----------------|
|------------------------*|------|*--------------*|
|-2----2--2----5----0----*|-2----|*2--2---2--2---*|
|-2----2--2----5----0-----|-2----|-2--2---2--2----|

Thank you for visiting the Bruce Bernhart mandolin websites!
Be sure to visit the other Bruce Bernhart Mandolin Websites:

Bruce Bernhart mandolin rock tabs

Bruce Bernhart mandolin lesson on scales, meter, using a metronome

Bruce Bernhart mandolin purchase tips

Bruce Bernhart mandolin orchestras, tuning

Bruce Bernhart mandolin lessons- chord groups and intervals

Bruce Bernhart on mandolin family history

Bruce Bernhart on string and saddle adjustment

Bruce Bernhart beginning mandolin lessons one and two

Bruce Bernhart on more chord triads, blues patterns, and self-tuning

Bruce Bernhart on the mandolin family tree

Bruce Bernhart mandolin chord diagrams


Bruce Bernhart on temperature considerations

Bruce Bernhart lessson on mandolin flats and sharps


Bruce Bernhart lesson on chromatic scales, circle of 5ths and meter


Bruce Bernhart on mandolin chord theory

Bruce Bernhart mandolin C and G major chord diagrams

Bruce Bernhart on emergence of the modern mandolin

Bruce Bernhart on two finger mandolin chords

Bruce Bernhart on whole and half steps on the mandolin

Bruce Bernhart perpetual motion practice excercises

Bruce Bernhart on playing waltzes on the mandolin


Bruce Bernhart on majors, minors and sevenths




Website Builder